  0
SECTION
  2
HEADER
  9
$ACADVER
  1
AC1009
  9
$INSBASE
 10
165.0653878530025
 20
173.1603079249645
 30
0.0
  9
$EXTMIN
 10
164.5476209000365
 20
173.1603079249645
 30
0.0
  9
$EXTMAX
 10
519.1252556604799
 20
1192.486964603754
 30
0.0
  9
$LIMMIN
 10
0.0
 20
0.0
  9
$LIMMAX
 10
420.0
 20
297.0
  9
$ORTHOMODE
 70
     1
  9
$REGENMODE
 70
     1
  9
$FILLMODE
 70
     1
  9
$QTEXTMODE
 70
     0
  9
$MIRRTEXT
 70
     0
  9
$DRAGMODE
 70
     2
  9
$LTSCALE
 40
1.0
  9
$OSMODE
 70
     0
  9
$ATTMODE
 70
     1
  9
$TEXTSIZE
 40
3.5
  9
$TRACEWID
 40
0.05
  9
$TEXTSTYLE
  7
STANDARD
  9
$CLAYER
  8
0
  9
$CELTYPE
  6
BYLAYER
  9
$CECOLOR
 62
   256
  9
$DIMSCALE
 40
1.0
  9
$DIMASZ
 40
2.5
  9
$DIMEXO
 40
1.0
  9
$DIMDLI
 40
8.0
  9
$DIMRND
 40
0.0
  9
$DIMDLE
 40
0.0
  9
$DIMEXE
 40
2.0
  9
$DIMTP
 40
0.1
  9
$DIMTM
 40
0.1
  9
$DIMTXT
 40
3.5
  9
$DIMCEN
 40
2.0
  9
$DIMTSZ
 40
0.0
  9
$DIMTOL
 70
     0
  9
$DIMLIM
 70
     0
  9
$DIMTIH
 70
     0
  9
$DIMTOH
 70
     0
  9
$DIMSE1
 70
     0
  9
$DIMSE2
 70
     0
  9
$DIMTAD
 70
     1
  9
$DIMZIN
 70
     8
  9
$DIMBLK
  1

  9
$DIMASO
 70
     0
  9
$DIMSHO
 70
     0
  9
$DIMPOST
  1

  9
$DIMAPOST
  1

  9
$DIMALT
 70
     0
  9
$DIMALTD
 70
     2
  9
$DIMALTF
 40
25.39999999999999
  9
$DIMLFAC
 40
1.0
  9
$DIMTOFL
 70
     1
  9
$DIMTVP
 40
0.0
  9
$DIMTIX
 70
     0
  9
$DIMSOXD
 70
     0
  9
$DIMSAH
 70
     0
  9
$DIMBLK1
  1

  9
$DIMBLK2
  1

  9
$DIMSTYLE
  2
*UNNAMED
  9
$DIMCLRD
 70
     0
  9
$DIMCLRE
 70
     0
  9
$DIMCLRT
 70
     0
  9
$DIMTFAC
 40
1.0
  9
$DIMGAP
 40
0.09
  9
$LUNITS
 70
     2
  9
$LUPREC
 70
     3
  9
$SKETCHINC
 40
0.1
  9
$FILLETRAD
 40
20.0
  9
$AUNITS
 70
     0
  9
$AUPREC
 70
     3
  9
$MENU
  1

  9
$ELEVATION
 40
0.0
  9
$PELEVATION
 40
0.0
  9
$THICKNESS
 40
0.0
  9
$LIMCHECK
 70
     0
  9
$BLIPMODE
 70
     0
  9
$CHAMFERA
 40
0.0
  9
$CHAMFERB
 40
0.0
  9
$SKPOLY
 70
     1
  9
$TDCREATE
 40
2448783.639816435
  9
$TDUPDATE
 40
2449393.451886689
  9
$TDINDWG
 40
0.0151090278
  9
$TDUSRTIMER
 40
0.0151090278
  9
$USRTIMER
 70
     1
  9
$ANGBASE
 50
0.0
  9
$ANGDIR
 70
     0
  9
$PDMODE
 70
     3
  9
$PDSIZE
 40
2.0
  9
$PLINEWID
 40
0.0
  9
$COORDS
 70
     2
  9
$SPLFRAME
 70
     0
  9
$SPLINETYPE
 70
     6
  9
$SPLINESEGS
 70
     8
  9
$ATTDIA
 70
     1
  9
$ATTREQ
 70
     1
  9
$HANDLING
 70
     0
  9
$HANDSEED
  5
158
  9
$SURFTAB1
 70
     6
  9
$SURFTAB2
 70
     6
  9
$SURFTYPE
 70
     6
  9
$SURFU
 70
     6
  9
$SURFV
 70
     6
  9
$UCSNAME
  2

  9
$UCSORG
 10
0.0
 20
0.0
 30
0.0
  9
$UCSXDIR
 10
1.0
 20
0.0
 30
0.0
  9
$UCSYDIR
 10
0.0
 20
1.0
 30
0.0
  9
$PUCSNAME
  2

  9
$PUCSORG
 10
0.0
 20
0.0
 30
0.0
  9
$PUCSXDIR
 10
1.0
 20
0.0
 30
0.0
  9
$PUCSYDIR
 10
0.0
 20
1.0
 30
0.0
  9
$USERI1
 70
     0
  9
$USERI2
 70
     3
  9
$USERI3
 70
    15
  9
$USERI4
 70
     0
  9
$USERI5
 70
     0
  9
$USERR1
 40
0.0
  9
$USERR2
 40
1.0
  9
$USERR3
 40
0.0
  9
$USERR4
 40
1.0
  9
$USERR5
 40
0.0
  9
$WORLDVIEW
 70
     1
  9
$SHADEDGE
 70
     3
  9
$SHADEDIF
 70
    70
  9
$TILEMODE
 70
     1
  9
$MAXACTVP
 70
    16
  9
$PINSBASE
 10
0.0
 20
0.0
 30
0.0
  9
$PLIMCHECK
 70
     0
  9
$PEXTMIN
 10
1.000000000000000E+20
 20
1.000000000000000E+20
 30
1.000000000000000E+20
  9
$PEXTMAX
 10
-1.000000000000000E+20
 20
-1.000000000000000E+20
 30
-1.000000000000000E+20
  9
$PLIMMIN
 10
0.0
 20
0.0
  9
$PLIMMAX
 10
12.0
 20
9.0
  9
$UNITMODE
 70
     0
  9
$VISRETAIN
 70
     0
  9
$PLINEGEN
 70
     0
  9
$PSLTSCALE
 70
     0
  9
$TREEDEPTH
 70
  3020
  9
$DWGCODEPAGE
  3
undefined
  0
ENDSEC
  0
SECTION
  2
TABLES
  0
TABLE
  2
VPORT
 70
     2
  0
VPORT
  2
*ACTIVE
 70
     0
 10
0.0
 20
0.0
 11
1.0
 21
1.0
 12
868.4117659408298
 22
724.5123415955071
 13
0.0
 23
0.0
 14
7.0
 24
7.0
 15
0.0
 25
0.0
 16
0.0
 26
0.0
 36
1.0
 17
0.0
 27
0.0
 37
0.0
 40
1102.704067341084
 41
1.275675675675675
 42
50.0
 43
0.0
 44
0.0
 50
0.0
 51
0.0
 71
     0
 72
 10000
 73
     1
 74
     0
 75
     0
 76
     0
 77
     0
 78
     0
  0
ENDTAB
  0
TABLE
  2
LTYPE
 70
     2
  0
LTYPE
  2
AUSGEZOGEN
 70
    64
  3
Solid line
 72
    65
 73
     0
 40
0.0
  0
LTYPE
  2
ITEM-STRICHPUNKT
 70
    64
  3
__ . __ . __
 72
    65
 73
     4
 40
3.599999999999999
 49
2.399999999999999
 49
-0.6
 49
0.0
 49
-0.6
  0
ENDTAB
  0
TABLE
  2
LAYER
 70
     6
  0
LAYER
  2
0
 70
    64
 62
     7
  6
AUSGEZOGEN
  0
LAYER
  2
ITEM_50
 70
    64
 62
     7
  6
AUSGEZOGEN
  0
LAYER
  2
ITEM_25
 70
    64
 62
     3
  6
AUSGEZOGEN
  0
LAYER
  2
ITEM_HILFE
 70
     0
 62
     3
  6
AUSGEZOGEN
  0
LAYER
  2
ITEM_INFO
 70
     0
 62
     4
  6
AUSGEZOGEN
  0
LAYER
  2
ITEM_STP
 70
    64
 62
     4
  6
ITEM-STRICHPUNKT
  0
ENDTAB
  0
TABLE
  2
STYLE
 70
     1
  0
STYLE
  2
STANDARD
 70
     0
 40
0.0
 41
1.0
 50
0.0
 71
     0
 42
3.5
  3
iso
  4

  0
ENDTAB
  0
TABLE
  2
VIEW
 70
     0
  0
ENDTAB
  0
TABLE
  2
UCS
 70
     0
  0
ENDTAB
  0
TABLE
  2
APPID
 70
     1
  0
APPID
  2
ACAD
 70
    64
  0
ENDTAB
  0
TABLE
  2
DIMSTYLE
 70
     0
  0
ENDTAB
  0
ENDSEC
  0
SECTION
  2
BLOCKS
  0
ENDSEC
  0
SECTION
  2
ENTITIES
  0
LINE
  8
ITEM_50
 10
165.0653878530025
 20
187.9691976507876
 30
0.0
 11
181.0653878530025
 21
187.9691976507876
 31
0.0
  0
LINE
  8
ITEM_50
 10
205.0653878530025
 20
187.9691976507876
 30
0.0
 11
205.0653878530025
 21
1187.969197650787
 31
0.0
  0
LINE
  8
ITEM_50
 10
205.0653878530025
 20
1187.969197650787
 30
0.0
 11
165.0653878530025
 21
1187.969197650787
 31
0.0
  0
LINE
  8
ITEM_50
 10
165.0653878530025
 20
1187.969197650787
 30
0.0
 11
165.0653878530025
 21
187.9691976507876
 31
0.0
  0
LINE
  8
ITEM_50
 10
189.0653878530025
 20
1187.969197650787
 30
0.0
 11
189.0653878530025
 21
217.1341976507876
 31
0.0
  0
LINE
  8
ITEM_50
 10
181.0653878530025
 20
217.1341976507876
 30
0.0
 11
181.0653878530025
 21
1187.969197650787
 31
0.0
  0
LINE
  8
ITEM_50
 10
189.0653878530025
 20
187.9691976507876
 30
0.0
 11
205.0653878530025
 21
187.9691976507876
 31
0.0
  0
LINE
  8
ITEM_50
 10
511.62525566048
 20
1187.969197650787
 30
0.0
 11
471.62525566048
 21
1187.969197650787
 31
0.0
  0
LINE
  8
ITEM_50
 10
487.62525566048
 20
187.9691976507876
 30
0.0
 11
487.62525566048
 21
1187.969197650787
 31
0.0
  0
LINE
  8
ITEM_50
 10
495.62525566048
 20
1187.969197650787
 30
0.0
 11
495.62525566048
 21
187.9691976507876
 31
0.0
  0
LINE
  8
ITEM_50
 10
511.62525566048
 20
187.9691976507876
 30
0.0
 11
511.62525566048
 21
1187.969197650787
 31
0.0
  0
LINE
  8
ITEM_50
 10
471.62525566048
 20
1187.969197650787
 30
0.0
 11
471.62525566048
 21
187.9691976507876
 31
0.0
  0
LINE
  8
ITEM_50
 10
471.62525566048
 20
187.9691976507876
 30
0.0
 11
511.62525566048
 21
187.9691976507876
 31
0.0
  0
POINT
  8
0
 10
471.62525566048
 20
187.9691976507876
 30
0.0
  0
LINE
  8
ITEM_50
 10
476.0044822624337
 20
176.1691976507877
 30
0.0
 11
472.3573064680406
 21
176.1691976507877
 31
0.0
  0
ARC
  8
ITEM_50
 10
479.62525566048
 20
174.4691976507876
 30
0.0
 40
4.0
 50
25.15066341253942
 51
154.8493365874605
  0
LINE
  8
ITEM_50
 10
486.8932048529123
 20
176.1691976507877
 30
0.0
 11
483.2460290585266
 21
176.1691976507877
 31
0.0
  0
LINE
  8
ITEM_50
 10
483.62525566048
 20
176.1691976507874
 30
0.0
 11
483.62525566048
 21
175.8691976507877
 31
0.0
  0
LINE
  8
ITEM_25
 10
482.9482556604801
 20
176.6957804585901
 30
0.0
 11
482.9482556604799
 21
175.1921976507876
 31
0.0
  0
LINE
  8
ITEM_25
 10
476.30225566048
 20
176.6957804585885
 30
0.0
 11
476.30225566048
 21
175.1921976507876
 31
0.0
  0
LINE
  8
ITEM_50
 10
472.42525566048
 20
184.4691976507876
 30
0.0
 11
475.62525566048
 21
184.4691976507876
 31
0.0
  0
LINE
  8
ITEM_50
 10
482.42525566048
 20
174.6691976507877
 30
0.0
 11
483.62525566048
 21
175.8691976507877
 31
0.0
  0
LINE
  8
ITEM_50
 10
475.62525566048
 20
175.8691976507877
 30
0.0
 11
476.8252556604801
 21
174.6691976507877
 31
0.0
  0
LINE
  8
ITEM_50
 10
475.62525566048
 20
175.8691976507877
 30
0.0
 11
483.62525566048
 21
175.8691976507877
 31
0.0
  0
LINE
  8
ITEM_25
 10
476.30225566048
 20
187.9691976507876
 30
0.0
 11
476.30225566048
 21
183.4691976507876
 31
0.0
  0
LINE
  8
ITEM_25
 10
482.9482556604799
 20
187.9691976507876
 30
0.0
 11
482.9482556604799
 21
183.4691976507876
 31
0.0
  0
LINE
  8
ITEM_50
 10
475.62525566048
 20
175.8691976507877
 30
0.0
 11
475.62525566048
 21
176.1691976507874
 31
0.0
  0
LINE
  8
ITEM_50
 10
482.42525566048
 20
174.6691976507877
 30
0.0
 11
476.8252556604801
 21
174.6691976507877
 31
0.0
  0
LINE
  8
ITEM_50
 10
483.62525566048
 20
187.9691976507876
 30
0.0
 11
483.62525566048
 21
183.4691976507876
 31
0.0
  0
LINE
  8
ITEM_50
 10
475.62525566048
 20
183.4691976507876
 30
0.0
 11
475.62525566048
 21
187.9691976507876
 31
0.0
  0
LINE
  8
ITEM_50
 10
472.42525566048
 20
187.9691976507876
 30
0.0
 11
472.42525566048
 21
184.4691976507876
 31
0.0
  0
LINE
  8
ITEM_STP
 10
479.62525566048
 20
207.9691976507876
 30
0.0
 11
479.62525566048
 21
173.1603079249645
 31
0.0
  0
ARC
  8
ITEM_50
 10
470.6252556604801
 20
175.1691976507858
 30
0.0
 40
2.0
 50
30.00000000006075
 51
149.9999999999391
  0
ARC
  8
ITEM_50
 10
479.6252556604801
 20
174.4691976507876
 30
0.0
 40
4.0
 50
25.15066341253579
 51
154.8493365874642
  0
LINE
  8
ITEM_50
 10
483.2460290585265
 20
176.1691976507877
 30
0.0
 11
487.1252556604801
 21
176.1691976507877
 31
0.0
  0
LINE
  8
ITEM_50
 10
487.1252556604801
 20
176.1691976507877
 30
0.0
 11
487.1252556604801
 21
183.4691976507876
 31
0.0
  0
LINE
  8
ITEM_50
 10
487.1252556604801
 20
183.4691976507876
 30
0.0
 11
464.1252556604801
 21
183.4691976507876
 31
0.0
  0
ARC
  8
ITEM_50
 10
470.6252556604801
 20
177.1691976507877
 30
0.0
 40
2.0
 50
210.0000000000174
 51
329.9999999999681
  0
LINE
  8
ITEM_50
 10
464.1252556604801
 20
176.1691976507877
 30
0.0
 11
468.8932048529122
 21
176.1691976507877
 31
0.0
  0
LINE
  8
ITEM_50
 10
464.1252556604801
 20
183.4691976507876
 30
0.0
 11
464.1252556604801
 21
176.1691976507877
 31
0.0
  0
LINE
  8
ITEM_50
 10
519.1252556604799
 20
183.4691976507876
 30
0.0
 11
519.1252556604799
 21
176.1691976507877
 31
0.0
  0
LINE
  8
ITEM_50
 10
519.1252556604799
 20
176.1691976507877
 30
0.0
 11
514.3573064680479
 21
176.1691976507877
 31
0.0
  0
ARC
  8
ITEM_50
 10
512.6252556604799
 20
177.1691976507877
 30
0.0
 40
2.0
 50
210.0000000000318
 51
329.9999999999825
  0
LINE
  8
ITEM_50
 10
496.12525566048
 20
183.4691976507876
 30
0.0
 11
519.1252556604799
 21
183.4691976507876
 31
0.0
  0
LINE
  8
ITEM_50
 10
496.12525566048
 20
176.1691976507877
 30
0.0
 11
496.12525566048
 21
183.4691976507876
 31
0.0
  0
LINE
  8
ITEM_50
 10
500.0044822624336
 20
176.1691976507877
 30
0.0
 11
496.12525566048
 21
176.1691976507877
 31
0.0
  0
ARC
  8
ITEM_50
 10
503.62525566048
 20
174.4691976507876
 30
0.0
 40
4.0
 50
25.1506634125321
 51
154.8493365874678
  0
ARC
  8
ITEM_50
 10
512.6252556604799
 20
175.1691976507858
 30
0.0
 40
2.0
 50
30.00000000006082
 51
149.9999999999392
  0
LINE
  8
ITEM_50
 10
500.8252556604801
 20
174.6691976507877
 30
0.0
 11
506.42525566048
 21
174.6691976507877
 31
0.0
  0
LINE
  8
ITEM_50
 10
507.62525566048
 20
175.8691976507877
 30
0.0
 11
507.62525566048
 21
176.1691976507874
 31
0.0
  0
LINE
  8
ITEM_50
 10
507.62525566048
 20
175.8691976507877
 30
0.0
 11
499.62525566048
 21
175.8691976507877
 31
0.0
  0
LINE
  8
ITEM_50
 10
507.62525566048
 20
175.8691976507877
 30
0.0
 11
506.42525566048
 21
174.6691976507877
 31
0.0
  0
LINE
  8
ITEM_50
 10
500.8252556604801
 20
174.6691976507877
 30
0.0
 11
499.62525566048
 21
175.8691976507877
 31
0.0
  0
LINE
  8
ITEM_50
 10
510.8252556604801
 20
184.4691976507876
 30
0.0
 11
507.62525566048
 21
184.4691976507876
 31
0.0
  0
LINE
  8
ITEM_25
 10
506.9482556604801
 20
176.6957804585885
 30
0.0
 11
506.9482556604801
 21
175.1921976507876
 31
0.0
  0
LINE
  8
ITEM_25
 10
500.30225566048
 20
176.6957804585901
 30
0.0
 11
500.3022556604802
 21
175.1921976507876
 31
0.0
  0
LINE
  8
ITEM_50
 10
499.62525566048
 20
176.1691976507874
 30
0.0
 11
499.62525566048
 21
175.8691976507877
 31
0.0
  0
LINE
  8
ITEM_50
 10
496.3573064680477
 20
176.1691976507877
 30
0.0
 11
500.0044822624334
 21
176.1691976507877
 31
0.0
  0
ARC
  8
ITEM_50
 10
503.62525566048
 20
174.4691976507876
 30
0.0
 40
4.0
 50
25.15066341253579
 51
154.8493365874642
  0
LINE
  8
ITEM_50
 10
507.2460290585264
 20
176.1691976507877
 30
0.0
 11
510.8932048529195
 21
176.1691976507877
 31
0.0
  0
LINE
  8
ITEM_25
 10
500.3022556604802
 20
187.9691976507876
 30
0.0
 11
500.3022556604802
 21
183.4691976507876
 31
0.0
  0
LINE
  8
ITEM_50
 10
499.62525566048
 20
187.9691976507876
 30
0.0
 11
499.62525566048
 21
183.4691976507876
 31
0.0
  0
LINE
  8
ITEM_STP
 10
503.62525566048
 20
207.9691976507876
 30
0.0
 11
503.62525566048
 21
173.1603079249645
 31
0.0
  0
LINE
  8
ITEM_50
 10
510.8252556604801
 20
187.9691976507876
 30
0.0
 11
510.8252556604801
 21
184.4691976507876
 31
0.0
  0
LINE
  8
ITEM_50
 10
507.62525566048
 20
183.4691976507876
 30
0.0
 11
507.62525566048
 21
187.9691976507876
 31
0.0
  0
LINE
  8
ITEM_25
 10
506.9482556604801
 20
187.9691976507876
 30
0.0
 11
506.9482556604801
 21
183.4691976507876
 31
0.0
  0
LINE
  8
ITEM_STP
 10
185.0653878530028
 20
207.9691976507876
 30
0.0
 11
173.0531198364245
 21
207.9691976507876
 31
0.0
  0
LINE
  8
ITEM_STP
 10
185.0653878530028
 20
207.9691976507876
 30
0.0
 11
185.0653878530028
 21
219.9814656673658
 31
0.0
  0
LINE
  8
ITEM_STP
 10
185.0653878530028
 20
207.9691976507876
 30
0.0
 11
197.077655869581
 21
207.9691976507876
 31
0.0
  0
LINE
  8
ITEM_STP
 10
185.0653878530028
 20
207.9691976507876
 30
0.0
 11
185.0653878530028
 21
173.3197111113799
 31
0.0
  0
LINE
  8
ITEM_50
 10
178.3653868993398
 20
183.4691976507876
 30
0.0
 11
191.7653888066658
 21
183.4691976507876
 31
0.0
  0
ARC
  8
ITEM_50
 10
177.0973833376816
 20
189.1419836644144
 30
0.0
 40
16.0
 50
311.6056887062136
 51
338.1797900552795
  0
ARC
  8
ITEM_50
 10
193.0333942756725
 20
189.1419836644144
 30
0.0
 40
16.0
 50
201.8202099447204
 51
228.3943112937862
  0
ARC
  8
ITEM_50
 10
178.3653888066884
 20
183.2691976507876
 30
0.0
 40
0.2
 50
90.00054641513357
 51
201.8202429859153
  0
ARC
  8
ITEM_50
 10
191.7653888066658
 20
183.2691976507876
 30
0.0
 40
0.2
 50
338.1797570140846
 51
90.0
  0
CIRCLE
  8
ITEM_50
 10
185.0653878530028
 20
207.9691976507876
 30
0.0
 40
10.0
  0
ARC
  8
ITEM_50
 10
185.0653878530028
 20
207.9691976507876
 30
0.0
 40
11.50630756908294
 50
249.6572454763191
 51
290.3427545236808
  0
LINE
  8
ITEM_50
 10
181.0653878530028
 20
184.4691976507876
 30
0.0
 11
189.0653878530028
 21
184.4691976507876
 31
0.0
  0
LINE
  8
ITEM_25
 10
188.3883878530026
 20
184.4691976507876
 30
0.0
 11
188.3883878530026
 21
183.4691976507876
 31
0.0
  0
LINE
  8
ITEM_25
 10
181.7423878530029
 20
184.4691976507876
 30
0.0
 11
181.7423878530027
 21
183.4691976507876
 31
0.0
  0
LINE
  8
ITEM_50
 10
189.0653878530028
 20
198.8124338134889
 30
0.0
 11
189.0653878530028
 21
183.4691976507876
 31
0.0
  0
LINE
  8
ITEM_50
 10
181.0653878530028
 20
183.4691976507876
 30
0.0
 11
181.0653878530028
 21
198.7993258902708
 31
0.0
  0
ARC
  8
ITEM_50
 10
185.0653888066771
 20
180.169197650804
 30
0.0
 40
4.000000000000682
 50
228.3943135955485
 51
311.6056910079759
  0
LINE
  8
ITEM_50
 10
187.8653878530027
 20
175.9691976507876
 30
0.0
 11
182.2653878530028
 21
175.9691976507876
 31
0.0
  0
LINE
  8
ITEM_50
 10
189.0653878530028
 20
177.1175924076544
 30
0.0
 11
187.6514486359277
 21
177.1175924076544
 31
0.0
  0
LINE
  8
ITEM_50
 10
189.0653878530028
 20
177.1175924076544
 30
0.0
 11
187.8653878530027
 21
175.9691976507876
 31
0.0
  0
LINE
  8
ITEM_50
 10
182.2653878530028
 20
175.9691976507876
 30
0.0
 11
181.0653878530028
 21
177.1175924076544
 31
0.0
  0
LINE
  8
ITEM_25
 10
188.3883878530026
 20
177.8056166522278
 30
0.0
 11
188.3883878530026
 21
176.4697063656551
 31
0.0
  0
LINE
  8
ITEM_25
 10
181.7423878530029
 20
177.8056185519444
 30
0.0
 11
181.7423878530031
 21
176.4697063656551
 31
0.0
  0
LINE
  8
ITEM_50
 10
189.0653878530028
 20
178.5228091239309
 30
0.0
 11
189.0653878530028
 21
177.1175924076544
 31
0.0
  0
LINE
  8
ITEM_50
 10
181.0653878530028
 20
177.1175924076544
 30
0.0
 11
181.0653878530028
 21
178.5228112735485
 31
0.0
  0
LINE
  8
ITEM_50
 10
182.479328977368
 20
177.1175924076546
 30
0.0
 11
181.0653878530028
 21
177.1175924076546
 31
0.0
  0
LINE
  8
ITEM_50
 10
205.0653878530029
 20
1189.469197650787
 30
0.0
 11
205.0653878530029
 21
1187.969197650787
 31
0.0
  0
LINE
  8
ITEM_50
 10
205.0653878530029
 20
1187.969197650787
 30
0.0
 11
165.0653878530029
 21
1187.969197650787
 31
0.0
  0
LINE
  8
ITEM_50
 10
165.0653878530029
 20
1187.969197650787
 30
0.0
 11
165.0653878530029
 21
1189.469197650787
 31
0.0
  0
ARC
  8
ITEM_50
 10
167.5653878530029
 20
1189.469197650787
 30
0.0
 40
2.5
 50
90.0
 51
180.0
  0
LINE
  8
ITEM_50
 10
167.5653878530029
 20
1191.969197650787
 30
0.0
 11
202.5653878530029
 21
1191.969197650787
 31
0.0
  0
ARC
  8
ITEM_50
 10
202.5653878530029
 20
1189.469197650787
 30
0.0
 40
2.5
 50
0.0
 51
90.0
  0
LINE
  8
ITEM_50
 10
511.6252556604804
 20
1189.469197650787
 30
0.0
 11
511.6252556604804
 21
1187.969197650787
 31
0.0
  0
LINE
  8
ITEM_50
 10
511.6252556604804
 20
1187.969197650787
 30
0.0
 11
471.6252556604804
 21
1187.969197650787
 31
0.0
  0
LINE
  8
ITEM_50
 10
471.6252556604804
 20
1187.969197650787
 30
0.0
 11
471.6252556604804
 21
1189.469197650787
 31
0.0
  0
ARC
  8
ITEM_50
 10
474.1252556604804
 20
1189.469197650787
 30
0.0
 40
2.5
 50
90.0
 51
180.0
  0
LINE
  8
ITEM_50
 10
474.1252556604804
 20
1191.969197650787
 30
0.0
 11
509.1252556604804
 21
1191.969197650787
 31
0.0
  0
ARC
  8
ITEM_50
 10
509.1252556604804
 20
1189.469197650787
 30
0.0
 40
2.5
 50
0.0
 51
90.0
  0
ENDSEC
  0
EOF
